ISO-10303-21;
HEADER;
/* Generated by software containing ST-Developer
 * from STEP Tools, Inc. (www.steptools.com) 
 */
/* OPTION: using custom schema-name function */

FILE_DESCRIPTION(
/* description */ (''),
/* implementation_level */ '2;1');

FILE_NAME(
/* name */ 'AGWP 16 Kundenmodell.stp',
/* time_stamp */ '2013-10-16T10:10:45+02:00',
/* author */ (''),
/* organization */ (''),
/* preprocessor_version */ 'ST-DEVELOPER v14',
/* originating_system */ 'SIEMENS PLM Software NX 8.0',
/* authorisation */ '');

FILE_SCHEMA (('AUTOMOTIVE_DESIGN { 1 0 10303 214 3 1 1 1 }'));
ENDSEC;

DATA;
#10=PROPERTY_DEFINITION_REPRESENTATION(#14,#12);
#11=PROPERTY_DEFINITION_REPRESENTATION(#15,#13);
#12=REPRESENTATION('',(#16),#543);
#13=REPRESENTATION('',(#17),#543);
#14=PROPERTY_DEFINITION('pmi validation property','',#21);
#15=PROPERTY_DEFINITION('pmi validation property','',#21);
#16=VALUE_REPRESENTATION_ITEM('number of annotations',COUNT_MEASURE(0.));
#17=VALUE_REPRESENTATION_ITEM('number of views',COUNT_MEASURE(0.));
#18=SHAPE_REPRESENTATION_RELATIONSHIP('None',
'relationship between KCH4348DD3Dr3p7-None and KCH4348DD3Dr3p7-None',#30,
#19);
#19=ADVANCED_BREP_SHAPE_REPRESENTATION('KCH4348DD3Dr3p7-None',(#40),#543);
#20=SHAPE_DEFINITION_REPRESENTATION(#21,#30);
#21=PRODUCT_DEFINITION_SHAPE('','',#22);
#22=PRODUCT_DEFINITION(' ','',#24,#23);
#23=PRODUCT_DEFINITION_CONTEXT('part definition',#29,'design');
#24=PRODUCT_DEFINITION_FORMATION_WITH_SPECIFIED_SOURCE(' ',' ',#26,
 .NOT_KNOWN.);
#25=PRODUCT_RELATED_PRODUCT_CATEGORY('part','',(#26));
#26=PRODUCT('KCH4348DD3Dr3p7','KCH4348DD3Dr3p7',' ',(#27));
#27=PRODUCT_CONTEXT(' ',#29,'mechanical');
#28=APPLICATION_PROTOCOL_DEFINITION('international standard',
'automotive_design',2010,#29);
#29=APPLICATION_CONTEXT(
'core data for automotive mechanical design processes');
#30=SHAPE_REPRESENTATION('KCH4348DD3Dr3p7-None',(#334),#543);
#31=PRESENTATION_LAYER_ASSIGNMENT('1','Layer 1',(#40));
#32=STYLED_ITEM('',(#33),#40);
#33=PRESENTATION_STYLE_ASSIGNMENT((#34));
#34=SURFACE_STYLE_USAGE(.BOTH.,#35);
#35=SURFACE_SIDE_STYLE('',(#36));
#36=SURFACE_STYLE_FILL_AREA(#37);
#37=FILL_AREA_STYLE('',(#38));
#38=FILL_AREA_STYLE_COLOUR('',#39);
#39=COLOUR_RGB('Lime',0.8,1.,0.2);
#40=MANIFOLD_SOLID_BREP('',#41);
#41=CLOSED_SHELL('',(#62,#63,#64,#65,#66,#67,#68,#69,#70,#71,#72,#73,#74,
#75,#76,#77));
#42=FACE_BOUND('',#108,.T.);
#43=FACE_BOUND('',#109,.T.);
#44=FACE_BOUND('',#112,.T.);
#45=FACE_BOUND('',#113,.T.);
#46=FACE_BOUND('',#114,.T.);
#47=FACE_BOUND('',#115,.T.);
#48=FACE_BOUND('',#116,.T.);
#49=FACE_BOUND('',#117,.T.);
#50=FACE_BOUND('',#118,.T.);
#51=FACE_BOUND('',#119,.T.);
#52=FACE_BOUND('',#120,.T.);
#53=FACE_BOUND('',#121,.T.);
#54=PLANE('',#338);
#55=PLANE('',#342);
#56=PLANE('',#346);
#57=PLANE('',#350);
#58=PLANE('',#354);
#59=PLANE('',#358);
#60=PLANE('',#365);
#61=PLANE('',#366);
#62=ADVANCED_FACE('',(#86),#78,.F.);
#63=ADVANCED_FACE('',(#87),#54,.T.);
#64=ADVANCED_FACE('',(#88),#79,.F.);
#65=ADVANCED_FACE('',(#89),#55,.T.);
#66=ADVANCED_FACE('',(#90),#80,.T.);
#67=ADVANCED_FACE('',(#91),#56,.T.);
#68=ADVANCED_FACE('',(#92),#81,.T.);
#69=ADVANCED_FACE('',(#93),#57,.T.);
#70=ADVANCED_FACE('',(#94),#82,.T.);
#71=ADVANCED_FACE('',(#95),#58,.T.);
#72=ADVANCED_FACE('',(#42,#43),#83,.F.);
#73=ADVANCED_FACE('',(#96),#59,.T.);
#74=ADVANCED_FACE('',(#97),#84,.T.);
#75=ADVANCED_FACE('',(#44,#45),#85,.F.);
#76=ADVANCED_FACE('',(#46,#47,#48,#49),#60,.F.);
#77=ADVANCED_FACE('',(#50,#51,#52,#53),#61,.T.);
#78=CYLINDRICAL_SURFACE('',#337,25.);
#79=CYLINDRICAL_SURFACE('',#341,25.);
#80=CYLINDRICAL_SURFACE('',#345,45.);
#81=CYLINDRICAL_SURFACE('',#349,57.);
#82=CYLINDRICAL_SURFACE('',#353,45.);
#83=CYLINDRICAL_SURFACE('',#357,20.);
#84=CYLINDRICAL_SURFACE('',#361,57.);
#85=CYLINDRICAL_SURFACE('',#364,20.);
#86=FACE_OUTER_BOUND('',#98,.T.);
#87=FACE_OUTER_BOUND('',#99,.T.);
#88=FACE_OUTER_BOUND('',#100,.T.);
#89=FACE_OUTER_BOUND('',#101,.T.);
#90=FACE_OUTER_BOUND('',#102,.T.);
#91=FACE_OUTER_BOUND('',#103,.T.);
#92=FACE_OUTER_BOUND('',#104,.T.);
#93=FACE_OUTER_BOUND('',#105,.T.);
#94=FACE_OUTER_BOUND('',#106,.T.);
#95=FACE_OUTER_BOUND('',#107,.T.);
#96=FACE_OUTER_BOUND('',#110,.T.);
#97=FACE_OUTER_BOUND('',#111,.T.);
#98=EDGE_LOOP('',(#170,#171,#172,#173));
#99=EDGE_LOOP('',(#174,#175,#176,#177));
#100=EDGE_LOOP('',(#178,#179,#180,#181));
#101=EDGE_LOOP('',(#182,#183,#184,#185));
#102=EDGE_LOOP('',(#186,#187,#188,#189));
#103=EDGE_LOOP('',(#190,#191,#192,#193));
#104=EDGE_LOOP('',(#194,#195,#196,#197));
#105=EDGE_LOOP('',(#198,#199,#200,#201));
#106=EDGE_LOOP('',(#202,#203,#204,#205));
#107=EDGE_LOOP('',(#206,#207,#208,#209));
#108=EDGE_LOOP('',(#210));
#109=EDGE_LOOP('',(#211));
#110=EDGE_LOOP('',(#212,#213,#214,#215));
#111=EDGE_LOOP('',(#216,#217,#218,#219));
#112=EDGE_LOOP('',(#220));
#113=EDGE_LOOP('',(#221));
#114=EDGE_LOOP('',(#222,#223,#224,#225,#226,#227,#228,#229));
#115=EDGE_LOOP('',(#230,#231,#232,#233));
#116=EDGE_LOOP('',(#234));
#117=EDGE_LOOP('',(#235));
#118=EDGE_LOOP('',(#236,#237,#238,#239,#240,#241,#242,#243));
#119=EDGE_LOOP('',(#244,#245,#246,#247));
#120=EDGE_LOOP('',(#248));
#121=EDGE_LOOP('',(#249));
#122=LINE('',#461,#146);
#123=LINE('',#465,#147);
#124=LINE('',#467,#148);
#125=LINE('',#469,#149);
#126=LINE('',#471,#150);
#127=LINE('',#477,#151);
#128=LINE('',#479,#152);
#129=LINE('',#482,#153);
#130=LINE('',#484,#154);
#131=LINE('',#486,#155);
#132=LINE('',#492,#156);
#133=LINE('',#494,#157);
#134=LINE('',#496,#158);
#135=LINE('',#498,#159);
#136=LINE('',#504,#160);
#137=LINE('',#506,#161);
#138=LINE('',#508,#162);
#139=LINE('',#510,#163);
#140=LINE('',#516,#164);
#141=LINE('',#518,#165);
#142=LINE('',#520,#166);
#143=LINE('',#522,#167);
#144=LINE('',#529,#168);
#145=LINE('',#530,#169);
#146=VECTOR('',#371,1.);
#147=VECTOR('',#374,1.);
#148=VECTOR('',#377,1.);
#149=VECTOR('',#378,1.);
#150=VECTOR('',#379,1.);
#151=VECTOR('',#386,1.);
#152=VECTOR('',#389,1.);
#153=VECTOR('',#390,1.);
#154=VECTOR('',#391,1.);
#155=VECTOR('',#392,1.);
#156=VECTOR('',#399,1.);
#157=VECTOR('',#402,1.);
#158=VECTOR('',#403,1.);
#159=VECTOR('',#404,1.);
#160=VECTOR('',#411,1.);
#161=VECTOR('',#414,1.);
#162=VECTOR('',#415,1.);
#163=VECTOR('',#416,1.);
#164=VECTOR('',#423,1.);
#165=VECTOR('',#426,1.);
#166=VECTOR('',#427,1.);
#167=VECTOR('',#428,1.);
#168=VECTOR('',#437,1.);
#169=VECTOR('',#438,1.);
#170=ORIENTED_EDGE('',*,*,#278,.F.);
#171=ORIENTED_EDGE('',*,*,#279,.F.);
#172=ORIENTED_EDGE('',*,*,#280,.T.);
#173=ORIENTED_EDGE('',*,*,#281,.T.);
#174=ORIENTED_EDGE('',*,*,#282,.F.);
#175=ORIENTED_EDGE('',*,*,#281,.F.);
#176=ORIENTED_EDGE('',*,*,#283,.T.);
#177=ORIENTED_EDGE('',*,*,#284,.T.);
#178=ORIENTED_EDGE('',*,*,#285,.F.);
#179=ORIENTED_EDGE('',*,*,#284,.F.);
#180=ORIENTED_EDGE('',*,*,#286,.T.);
#181=ORIENTED_EDGE('',*,*,#287,.T.);
#182=ORIENTED_EDGE('',*,*,#288,.F.);
#183=ORIENTED_EDGE('',*,*,#289,.F.);
#184=ORIENTED_EDGE('',*,*,#290,.T.);
#185=ORIENTED_EDGE('',*,*,#291,.T.);
#186=ORIENTED_EDGE('',*,*,#292,.F.);
#187=ORIENTED_EDGE('',*,*,#291,.F.);
#188=ORIENTED_EDGE('',*,*,#293,.T.);
#189=ORIENTED_EDGE('',*,*,#294,.T.);
#190=ORIENTED_EDGE('',*,*,#295,.F.);
#191=ORIENTED_EDGE('',*,*,#294,.F.);
#192=ORIENTED_EDGE('',*,*,#296,.T.);
#193=ORIENTED_EDGE('',*,*,#297,.T.);
#194=ORIENTED_EDGE('',*,*,#298,.F.);
#195=ORIENTED_EDGE('',*,*,#297,.F.);
#196=ORIENTED_EDGE('',*,*,#299,.T.);
#197=ORIENTED_EDGE('',*,*,#300,.T.);
#198=ORIENTED_EDGE('',*,*,#301,.F.);
#199=ORIENTED_EDGE('',*,*,#300,.F.);
#200=ORIENTED_EDGE('',*,*,#302,.T.);
#201=ORIENTED_EDGE('',*,*,#303,.T.);
#202=ORIENTED_EDGE('',*,*,#304,.F.);
#203=ORIENTED_EDGE('',*,*,#303,.F.);
#204=ORIENTED_EDGE('',*,*,#305,.T.);
#205=ORIENTED_EDGE('',*,*,#306,.T.);
#206=ORIENTED_EDGE('',*,*,#307,.F.);
#207=ORIENTED_EDGE('',*,*,#306,.F.);
#208=ORIENTED_EDGE('',*,*,#308,.T.);
#209=ORIENTED_EDGE('',*,*,#309,.T.);
#210=ORIENTED_EDGE('',*,*,#310,.T.);
#211=ORIENTED_EDGE('',*,*,#311,.F.);
#212=ORIENTED_EDGE('',*,*,#312,.F.);
#213=ORIENTED_EDGE('',*,*,#287,.F.);
#214=ORIENTED_EDGE('',*,*,#313,.T.);
#215=ORIENTED_EDGE('',*,*,#279,.T.);
#216=ORIENTED_EDGE('',*,*,#314,.F.);
#217=ORIENTED_EDGE('',*,*,#309,.F.);
#218=ORIENTED_EDGE('',*,*,#315,.T.);
#219=ORIENTED_EDGE('',*,*,#289,.T.);
#220=ORIENTED_EDGE('',*,*,#316,.F.);
#221=ORIENTED_EDGE('',*,*,#317,.T.);
#222=ORIENTED_EDGE('',*,*,#290,.F.);
#223=ORIENTED_EDGE('',*,*,#315,.F.);
#224=ORIENTED_EDGE('',*,*,#308,.F.);
#225=ORIENTED_EDGE('',*,*,#305,.F.);
#226=ORIENTED_EDGE('',*,*,#302,.F.);
#227=ORIENTED_EDGE('',*,*,#299,.F.);
#228=ORIENTED_EDGE('',*,*,#296,.F.);
#229=ORIENTED_EDGE('',*,*,#293,.F.);
#230=ORIENTED_EDGE('',*,*,#280,.F.);
#231=ORIENTED_EDGE('',*,*,#313,.F.);
#232=ORIENTED_EDGE('',*,*,#286,.F.);
#233=ORIENTED_EDGE('',*,*,#283,.F.);
#234=ORIENTED_EDGE('',*,*,#310,.F.);
#235=ORIENTED_EDGE('',*,*,#316,.T.);
#236=ORIENTED_EDGE('',*,*,#288,.T.);
#237=ORIENTED_EDGE('',*,*,#292,.T.);
#238=ORIENTED_EDGE('',*,*,#295,.T.);
#239=ORIENTED_EDGE('',*,*,#298,.T.);
#240=ORIENTED_EDGE('',*,*,#301,.T.);
#241=ORIENTED_EDGE('',*,*,#304,.T.);
#242=ORIENTED_EDGE('',*,*,#307,.T.);
#243=ORIENTED_EDGE('',*,*,#314,.T.);
#244=ORIENTED_EDGE('',*,*,#278,.T.);
#245=ORIENTED_EDGE('',*,*,#282,.T.);
#246=ORIENTED_EDGE('',*,*,#285,.T.);
#247=ORIENTED_EDGE('',*,*,#312,.T.);
#248=ORIENTED_EDGE('',*,*,#311,.T.);
#249=ORIENTED_EDGE('',*,*,#317,.F.);
#250=VERTEX_POINT('',#459);
#251=VERTEX_POINT('',#460);
#252=VERTEX_POINT('',#462);
#253=VERTEX_POINT('',#464);
#254=VERTEX_POINT('',#468);
#255=VERTEX_POINT('',#470);
#256=VERTEX_POINT('',#474);
#257=VERTEX_POINT('',#476);
#258=VERTEX_POINT('',#480);
#259=VERTEX_POINT('',#481);
#260=VERTEX_POINT('',#483);
#261=VERTEX_POINT('',#485);
#262=VERTEX_POINT('',#489);
#263=VERTEX_POINT('',#491);
#264=VERTEX_POINT('',#495);
#265=VERTEX_POINT('',#497);
#266=VERTEX_POINT('',#501);
#267=VERTEX_POINT('',#503);
#268=VERTEX_POINT('',#507);
#269=VERTEX_POINT('',#509);
#270=VERTEX_POINT('',#513);
#271=VERTEX_POINT('',#515);
#272=VERTEX_POINT('',#519);
#273=VERTEX_POINT('',#521);
#274=VERTEX_POINT('',#525);
#275=VERTEX_POINT('',#527);
#276=VERTEX_POINT('',#536);
#277=VERTEX_POINT('',#538);
#278=EDGE_CURVE('',#250,#251,#318,.T.);
#279=EDGE_CURVE('',#252,#250,#122,.T.);
#280=EDGE_CURVE('',#252,#253,#319,.T.);
#281=EDGE_CURVE('',#253,#251,#123,.T.);
#282=EDGE_CURVE('',#251,#254,#124,.T.);
#283=EDGE_CURVE('',#253,#255,#125,.T.);
#284=EDGE_CURVE('',#255,#254,#126,.T.);
#285=EDGE_CURVE('',#254,#256,#320,.T.);
#286=EDGE_CURVE('',#255,#257,#321,.T.);
#287=EDGE_CURVE('',#257,#256,#127,.T.);
#288=EDGE_CURVE('',#258,#259,#128,.T.);
#289=EDGE_CURVE('',#260,#258,#129,.T.);
#290=EDGE_CURVE('',#260,#261,#130,.T.);
#291=EDGE_CURVE('',#261,#259,#131,.T.);
#292=EDGE_CURVE('',#259,#262,#322,.T.);
#293=EDGE_CURVE('',#261,#263,#323,.T.);
#294=EDGE_CURVE('',#263,#262,#132,.T.);
#295=EDGE_CURVE('',#262,#264,#133,.T.);
#296=EDGE_CURVE('',#263,#265,#134,.T.);
#297=EDGE_CURVE('',#265,#264,#135,.T.);
#298=EDGE_CURVE('',#264,#266,#324,.T.);
#299=EDGE_CURVE('',#265,#267,#325,.T.);
#300=EDGE_CURVE('',#267,#266,#136,.T.);
#301=EDGE_CURVE('',#266,#268,#137,.T.);
#302=EDGE_CURVE('',#267,#269,#138,.T.);
#303=EDGE_CURVE('',#269,#268,#139,.T.);
#304=EDGE_CURVE('',#268,#270,#326,.T.);
#305=EDGE_CURVE('',#269,#271,#327,.T.);
#306=EDGE_CURVE('',#271,#270,#140,.T.);
#307=EDGE_CURVE('',#270,#272,#141,.T.);
#308=EDGE_CURVE('',#271,#273,#142,.T.);
#309=EDGE_CURVE('',#273,#272,#143,.T.);
#310=EDGE_CURVE('',#274,#274,#328,.T.);
#311=EDGE_CURVE('',#275,#275,#329,.T.);
#312=EDGE_CURVE('',#256,#250,#144,.T.);
#313=EDGE_CURVE('',#257,#252,#145,.T.);
#314=EDGE_CURVE('',#272,#258,#330,.T.);
#315=EDGE_CURVE('',#273,#260,#331,.T.);
#316=EDGE_CURVE('',#276,#276,#332,.T.);
#317=EDGE_CURVE('',#277,#277,#333,.T.);
#318=CIRCLE('',#335,25.);
#319=CIRCLE('',#336,25.);
#320=CIRCLE('',#339,25.);
#321=CIRCLE('',#340,25.);
#322=CIRCLE('',#343,45.);
#323=CIRCLE('',#344,45.);
#324=CIRCLE('',#347,57.);
#325=CIRCLE('',#348,57.);
#326=CIRCLE('',#351,45.);
#327=CIRCLE('',#352,45.);
#328=CIRCLE('',#355,20.);
#329=CIRCLE('',#356,20.);
#330=CIRCLE('',#359,57.);
#331=CIRCLE('',#360,57.);
#332=CIRCLE('',#362,20.);
#333=CIRCLE('',#363,20.);
#334=AXIS2_PLACEMENT_3D('',#457,#367,#368);
#335=AXIS2_PLACEMENT_3D('',#458,#369,#370);
#336=AXIS2_PLACEMENT_3D('',#463,#372,#373);
#337=AXIS2_PLACEMENT_3D('',#466,#375,#376);
#338=AXIS2_PLACEMENT_3D('',#472,#380,#381);
#339=AXIS2_PLACEMENT_3D('',#473,#382,#383);
#340=AXIS2_PLACEMENT_3D('',#475,#384,#385);
#341=AXIS2_PLACEMENT_3D('',#478,#387,#388);
#342=AXIS2_PLACEMENT_3D('',#487,#393,#394);
#343=AXIS2_PLACEMENT_3D('',#488,#395,#396);
#344=AXIS2_PLACEMENT_3D('',#490,#397,#398);
#345=AXIS2_PLACEMENT_3D('',#493,#400,#401);
#346=AXIS2_PLACEMENT_3D('',#499,#405,#406);
#347=AXIS2_PLACEMENT_3D('',#500,#407,#408);
#348=AXIS2_PLACEMENT_3D('',#502,#409,#410);
#349=AXIS2_PLACEMENT_3D('',#505,#412,#413);
#350=AXIS2_PLACEMENT_3D('',#511,#417,#418);
#351=AXIS2_PLACEMENT_3D('',#512,#419,#420);
#352=AXIS2_PLACEMENT_3D('',#514,#421,#422);
#353=AXIS2_PLACEMENT_3D('',#517,#424,#425);
#354=AXIS2_PLACEMENT_3D('',#523,#429,#430);
#355=AXIS2_PLACEMENT_3D('',#524,#431,#432);
#356=AXIS2_PLACEMENT_3D('',#526,#433,#434);
#357=AXIS2_PLACEMENT_3D('',#528,#435,#436);
#358=AXIS2_PLACEMENT_3D('',#531,#439,#440);
#359=AXIS2_PLACEMENT_3D('',#532,#441,#442);
#360=AXIS2_PLACEMENT_3D('',#533,#443,#444);
#361=AXIS2_PLACEMENT_3D('',#534,#445,#446);
#362=AXIS2_PLACEMENT_3D('',#535,#447,#448);
#363=AXIS2_PLACEMENT_3D('',#537,#449,#450);
#364=AXIS2_PLACEMENT_3D('',#539,#451,#452);
#365=AXIS2_PLACEMENT_3D('',#540,#453,#454);
#366=AXIS2_PLACEMENT_3D('',#541,#455,#456);
#367=DIRECTION('',(0.,0.,1.));
#368=DIRECTION('',(1.,0.,0.));
#369=DIRECTION('',(0.,0.,1.));
#370=DIRECTION('',(1.,0.,0.));
#371=DIRECTION('',(0.,0.,-1.));
#372=DIRECTION('',(0.,0.,1.));
#373=DIRECTION('',(1.,0.,0.));
#374=DIRECTION('',(0.,0.,-1.));
#375=DIRECTION('',(0.,0.,-1.));
#376=DIRECTION('',(-1.,0.,0.));
#377=DIRECTION('',(0.,-1.,0.));
#378=DIRECTION('',(0.,-1.,0.));
#379=DIRECTION('',(0.,0.,-1.));
#380=DIRECTION('',(1.,0.,0.));
#381=DIRECTION('',(0.,0.,-1.));
#382=DIRECTION('',(0.,0.,1.));
#383=DIRECTION('',(1.,0.,0.));
#384=DIRECTION('',(0.,0.,1.));
#385=DIRECTION('',(1.,0.,0.));
#386=DIRECTION('',(0.,0.,-1.));
#387=DIRECTION('',(0.,0.,-1.));
#388=DIRECTION('',(-1.,0.,0.));
#389=DIRECTION('',(-0.958671140463224,0.284516509965488,0.));
#390=DIRECTION('',(0.,0.,-1.));
#391=DIRECTION('',(-0.958671140463224,0.284516509965488,0.));
#392=DIRECTION('',(0.,0.,-1.));
#393=DIRECTION('',(-0.284516509965488,-0.958671140463224,0.));
#394=DIRECTION('',(0.958671140463224,-0.284516509965488,0.));
#395=DIRECTION('',(0.,0.,-1.));
#396=DIRECTION('',(1.,0.,0.));
#397=DIRECTION('',(0.,0.,-1.));
#398=DIRECTION('',(1.,0.,0.));
#399=DIRECTION('',(0.,0.,-1.));
#400=DIRECTION('',(0.,0.,-1.));
#401=DIRECTION('',(-1.,0.,0.));
#402=DIRECTION('',(0.958671140463224,0.284516509965487,0.));
#403=DIRECTION('',(0.958671140463224,0.284516509965487,0.));
#404=DIRECTION('',(0.,0.,-1.));
#405=DIRECTION('',(-0.284516509965487,0.958671140463224,0.));
#406=DIRECTION('',(-0.958671140463224,-0.284516509965488,0.));
#407=DIRECTION('',(0.,0.,-1.));
#408=DIRECTION('',(1.,0.,0.));
#409=DIRECTION('',(0.,0.,-1.));
#410=DIRECTION('',(1.,0.,0.));
#411=DIRECTION('',(0.,0.,-1.));
#412=DIRECTION('',(0.,0.,-1.));
#413=DIRECTION('',(-1.,0.,0.));
#414=DIRECTION('',(0.958671140463224,-0.284516509965488,0.));
#415=DIRECTION('',(0.958671140463224,-0.284516509965488,0.));
#416=DIRECTION('',(0.,0.,-1.));
#417=DIRECTION('',(0.284516509965488,0.958671140463224,0.));
#418=DIRECTION('',(-0.958671140463224,0.284516509965488,0.));
#419=DIRECTION('',(0.,0.,-1.));
#420=DIRECTION('',(1.,0.,0.));
#421=DIRECTION('',(0.,0.,-1.));
#422=DIRECTION('',(1.,0.,0.));
#423=DIRECTION('',(0.,0.,-1.));
#424=DIRECTION('',(0.,0.,-1.));
#425=DIRECTION('',(-1.,0.,0.));
#426=DIRECTION('',(-0.958671140463224,-0.284516509965488,0.));
#427=DIRECTION('',(-0.958671140463224,-0.284516509965488,0.));
#428=DIRECTION('',(0.,0.,-1.));
#429=DIRECTION('',(0.284516509965488,-0.958671140463224,0.));
#430=DIRECTION('',(0.958671140463224,0.284516509965488,0.));
#431=DIRECTION('',(0.,0.,1.));
#432=DIRECTION('',(1.,0.,0.));
#433=DIRECTION('',(0.,0.,1.));
#434=DIRECTION('',(1.,0.,0.));
#435=DIRECTION('',(0.,0.,-1.));
#436=DIRECTION('',(-1.,0.,0.));
#437=DIRECTION('',(0.,1.,0.));
#438=DIRECTION('',(0.,1.,0.));
#439=DIRECTION('',(-1.,0.,0.));
#440=DIRECTION('',(0.,0.,1.));
#441=DIRECTION('',(0.,0.,-1.));
#442=DIRECTION('',(1.,0.,0.));
#443=DIRECTION('',(0.,0.,-1.));
#444=DIRECTION('',(0.999999999999999,0.,0.));
#445=DIRECTION('',(0.,0.,-1.));
#446=DIRECTION('',(-1.,0.,0.));
#447=DIRECTION('',(0.,0.,-1.));
#448=DIRECTION('',(1.,0.,0.));
#449=DIRECTION('',(0.,0.,-1.));
#450=DIRECTION('',(1.,0.,0.));
#451=DIRECTION('',(0.,0.,-1.));
#452=DIRECTION('',(-1.,0.,0.));
#453=DIRECTION('',(0.,0.,-1.));
#454=DIRECTION('',(-1.,0.,0.));
#455=DIRECTION('',(0.,0.,-1.));
#456=DIRECTION('',(-1.,0.,0.));
#457=CARTESIAN_POINT('',(0.,0.,0.));
#458=CARTESIAN_POINT('',(-571.552150631018,-153.035287977051,0.));
#459=CARTESIAN_POINT('',(-546.552150631018,-153.035287977051,0.));
#460=CARTESIAN_POINT('',(-596.552150631018,-153.035287977051,0.));
#461=CARTESIAN_POINT('',(-546.552150631018,-153.035287977051,25.));
#462=CARTESIAN_POINT('',(-546.552150631018,-153.035287977051,25.));
#463=CARTESIAN_POINT('',(-571.552150631018,-153.035287977051,25.));
#464=CARTESIAN_POINT('',(-596.552150631018,-153.035287977051,25.));
#465=CARTESIAN_POINT('',(-596.552150631018,-153.035287977051,25.));
#466=CARTESIAN_POINT('',(-571.552150631018,-153.035287977051,25.));
#467=CARTESIAN_POINT('',(-596.552150631018,-153.035287977051,0.));
#468=CARTESIAN_POINT('',(-596.552150631018,-217.035287977051,0.));
#469=CARTESIAN_POINT('',(-596.552150631018,-153.035287977051,25.));
#470=CARTESIAN_POINT('',(-596.552150631018,-217.035287977051,25.));
#471=CARTESIAN_POINT('',(-596.552150631018,-217.035287977051,25.));
#472=CARTESIAN_POINT('',(-596.552150631018,-153.035287977051,25.));
#473=CARTESIAN_POINT('',(-571.552150631018,-217.035287977051,0.));
#474=CARTESIAN_POINT('',(-546.552150631018,-217.035287977051,0.));
#475=CARTESIAN_POINT('',(-571.552150631018,-217.035287977051,25.));
#476=CARTESIAN_POINT('',(-546.552150631018,-217.035287977051,25.));
#477=CARTESIAN_POINT('',(-546.552150631018,-217.035287977051,25.));
#478=CARTESIAN_POINT('',(-571.552150631018,-217.035287977051,25.));
#479=CARTESIAN_POINT('',(-587.769591699051,-271.679542983455,0.));
#480=CARTESIAN_POINT('',(-587.769591699051,-271.679542983455,0.));
#481=CARTESIAN_POINT('',(-734.355393579465,-228.175489297896,0.));
#482=CARTESIAN_POINT('',(-587.769591699051,-271.679542983455,25.));
#483=CARTESIAN_POINT('',(-587.769591699051,-271.679542983455,25.));
#484=CARTESIAN_POINT('',(-587.769591699051,-271.679542983455,25.));
#485=CARTESIAN_POINT('',(-734.355393579465,-228.175489297896,25.));
#486=CARTESIAN_POINT('',(-734.355393579465,-228.175489297896,25.));
#487=CARTESIAN_POINT('',(-587.769591699051,-271.679542983455,25.));
#488=CARTESIAN_POINT('',(-721.552150631018,-185.035287977051,0.));
#489=CARTESIAN_POINT('',(-734.355393579465,-141.895086656206,0.));
#490=CARTESIAN_POINT('',(-721.552150631018,-185.035287977051,25.));
#491=CARTESIAN_POINT('',(-734.355393579465,-141.895086656206,25.));
#492=CARTESIAN_POINT('',(-734.355393579465,-141.895086656206,25.));
#493=CARTESIAN_POINT('',(-721.552150631018,-185.035287977051,25.));
#494=CARTESIAN_POINT('',(-734.355393579465,-141.895086656206,0.));
#495=CARTESIAN_POINT('',(-587.769591699051,-98.3910329706473,0.));
#496=CARTESIAN_POINT('',(-734.355393579465,-141.895086656206,25.));
#497=CARTESIAN_POINT('',(-587.769591699051,-98.3910329706473,25.));
#498=CARTESIAN_POINT('',(-587.769591699051,-98.3910329706473,25.));
#499=CARTESIAN_POINT('',(-734.355393579465,-141.895086656206,25.));
#500=CARTESIAN_POINT('',(-571.552150631018,-153.035287977051,0.));
#501=CARTESIAN_POINT('',(-555.334709562985,-98.3910329706473,0.));
#502=CARTESIAN_POINT('',(-571.552150631018,-153.035287977051,25.));
#503=CARTESIAN_POINT('',(-555.334709562985,-98.3910329706473,25.));
#504=CARTESIAN_POINT('',(-555.334709562985,-98.3910329706473,25.));
#505=CARTESIAN_POINT('',(-571.552150631018,-153.035287977051,25.));
#506=CARTESIAN_POINT('',(-555.334709562985,-98.3910329706473,0.));
#507=CARTESIAN_POINT('',(-408.748907682571,-141.895086656206,0.));
#508=CARTESIAN_POINT('',(-555.334709562985,-98.3910329706473,25.));
#509=CARTESIAN_POINT('',(-408.748907682571,-141.895086656206,25.));
#510=CARTESIAN_POINT('',(-408.748907682571,-141.895086656206,25.));
#511=CARTESIAN_POINT('',(-555.334709562985,-98.3910329706473,25.));
#512=CARTESIAN_POINT('',(-421.552150631018,-185.035287977051,0.));
#513=CARTESIAN_POINT('',(-408.748907682571,-228.175489297896,0.));
#514=CARTESIAN_POINT('',(-421.552150631018,-185.035287977051,25.));
#515=CARTESIAN_POINT('',(-408.748907682571,-228.175489297896,25.));
#516=CARTESIAN_POINT('',(-408.748907682571,-228.175489297896,25.));
#517=CARTESIAN_POINT('',(-421.552150631018,-185.035287977051,25.));
#518=CARTESIAN_POINT('',(-408.748907682571,-228.175489297896,0.));
#519=CARTESIAN_POINT('',(-555.334709562985,-271.679542983455,0.));
#520=CARTESIAN_POINT('',(-408.748907682571,-228.175489297896,25.));
#521=CARTESIAN_POINT('',(-555.334709562985,-271.679542983455,25.));
#522=CARTESIAN_POINT('',(-555.334709562985,-271.679542983455,25.));
#523=CARTESIAN_POINT('',(-408.748907682571,-228.175489297896,25.));
#524=CARTESIAN_POINT('',(-721.552150631018,-185.035287977051,25.));
#525=CARTESIAN_POINT('',(-701.552150631018,-185.035287977051,25.));
#526=CARTESIAN_POINT('',(-721.552150631018,-185.035287977051,0.));
#527=CARTESIAN_POINT('',(-701.552150631018,-185.035287977051,0.));
#528=CARTESIAN_POINT('',(-721.552150631018,-185.035287977051,25.));
#529=CARTESIAN_POINT('',(-546.552150631018,-217.035287977051,0.));
#530=CARTESIAN_POINT('',(-546.552150631018,-217.035287977051,25.));
#531=CARTESIAN_POINT('',(-546.552150631018,-217.035287977051,25.));
#532=CARTESIAN_POINT('',(-571.552150631018,-217.035287977051,0.));
#533=CARTESIAN_POINT('',(-571.552150631018,-217.035287977051,25.));
#534=CARTESIAN_POINT('',(-571.552150631018,-217.035287977051,25.));
#535=CARTESIAN_POINT('',(-421.552150631018,-185.035287977051,25.));
#536=CARTESIAN_POINT('',(-401.552150631018,-185.035287977051,25.));
#537=CARTESIAN_POINT('',(-421.552150631018,-185.035287977051,0.));
#538=CARTESIAN_POINT('',(-401.552150631018,-185.035287977051,0.));
#539=CARTESIAN_POINT('',(-421.552150631018,-185.035287977051,25.));
#540=CARTESIAN_POINT('',(-721.552150631018,-185.035287977051,25.));
#541=CARTESIAN_POINT('',(-721.552150631018,-185.035287977051,0.));
#542=MECHANICAL_DESIGN_GEOMETRIC_PRESENTATION_REPRESENTATION('',(#32),#543);
#543=(
GEOMETRIC_REPRESENTATION_CONTEXT(3)
GLOBAL_UNCERTAINTY_ASSIGNED_CONTEXT((#544))
GLOBAL_UNIT_ASSIGNED_CONTEXT((#550,#546,#545))
REPRESENTATION_CONTEXT('AGWP 16 Kundenmodell','TOP_LEVEL_ASSEMBLY_PART')
);
#544=UNCERTAINTY_MEASURE_WITH_UNIT(LENGTH_MEASURE(2.E-005),#550,
'DISTANCE_ACCURACY_VALUE','Maximum Tolerance applied to model');
#545=(
NAMED_UNIT(*)
SI_UNIT($,.STERADIAN.)
SOLID_ANGLE_UNIT()
);
#546=(
CONVERSION_BASED_UNIT('DEGREE',#548)
NAMED_UNIT(#547)
PLANE_ANGLE_UNIT()
);
#547=DIMENSIONAL_EXPONENTS(0.,0.,0.,0.,0.,0.,0.);
#548=PLANE_ANGLE_MEASURE_WITH_UNIT(PLANE_ANGLE_MEASURE(0.0174532925),#549);
#549=(
NAMED_UNIT(*)
PLANE_ANGLE_UNIT()
SI_UNIT($,.RADIAN.)
);
#550=(
LENGTH_UNIT()
NAMED_UNIT(*)
SI_UNIT(.MILLI.,.METRE.)
);
ENDSEC;
END-ISO-10303-21;
